  0
SECTION
  2
HEADER
  9
$ACADVER
  1
AC1015
  9
$ACADMAINTVER
 70
     6
  9
$DWGCODEPAGE
  3
ANSI_1254
  9
$INSBASE
 10
0.0
 20
0.0
 30
0.0
  9
$EXTMIN
 10
0.0
 20
0.0
 30
0.0
  9
$EXTMAX
 10
279.4
 20
215.9
 30
0.0
  9
$LIMMIN
 10
0.0
 20
0.0
  9
$LIMMAX
 10
279.4
 20
215.9
  9
$ORTHOMODE
 70
     0
  9
$REGENMODE
 70
     1
  9
$FILLMODE
 70
     1
  9
$QTEXTMODE
 70
     0
  9
$MIRRTEXT
 70
     1
  9
$LTSCALE
 40
1.0
  9
$ATTMODE
 70
     1
  9
$TEXTSIZE
 40
3.5
  9
$TRACEWID
 40
1.0
  9
$TEXTSTYLE
  7
Standard
  9
$CLAYER
  8
0
  9
$CELTYPE
  6
ByLayer
  9
$CECOLOR
 62
   256
  9
$CELTSCALE
 40
1.0
  9
$DISPSILH
 70
     0
  9
$DIMSCALE
 40
1.0
  9
$DIMASZ
 40
3.5
  9
$DIMEXO
 40
1.0
  9
$DIMDLI
 40
3.75
  9
$DIMRND
 40
0.0
  9
$DIMDLE
 40
0.0
  9
$DIMEXE
 40
1.0
  9
$DIMTP
 40
0.0
  9
$DIMTM
 40
0.0
  9
$DIMTXT
 40
3.5
  9
$DIMCEN
 40
2.5
  9
$DIMTSZ
 40
0.0
  9
$DIMTOL
 70
     0
  9
$DIMLIM
 70
     0
  9
$DIMTIH
 70
     1
  9
$DIMTOH
 70
     1
  9
$DIMSE1
 70
     0
  9
$DIMSE2
 70
     0
  9
$DIMTAD
 70
     1
  9
$DIMZIN
 70
     0
  9
$DIMBLK
  1

  9
$DIMASO
 70
     1
  9
$DIMSHO
 70
     1
  9
$DIMPOST
  1

  9
$DIMAPOST
  1

  9
$DIMALT
 70
     0
  9
$DIMALTD
 70
     3
  9
$DIMALTF
 40
0.0393700787
  9
$DIMLFAC
 40
1.0
  9
$DIMTOFL
 70
     1
  9
$DIMTVP
 40
0.0
  9
$DIMTIX
 70
     0
  9
$DIMSOXD
 70
     0
  9
$DIMSAH
 70
     0
  9
$DIMBLK1
  1

  9
$DIMBLK2
  1

  9
$DIMSTYLE
  2
ISO-25
  9
$DIMCLRD
 70
     0
  9
$DIMCLRE
 70
     0
  9
$DIMCLRT
 70
     0
  9
$DIMTFAC
 40
1.0
  9
$DIMGAP
 40
1.524
  9
$DIMJUST
 70
     0
  9
$DIMSD1
 70
     0
  9
$DIMSD2
 70
     0
  9
$DIMTOLJ
 70
     0
  9
$DIMTZIN
 70
     0
  9
$DIMALTZ
 70
     0
  9
$DIMALTTZ
 70
     0
  9
$DIMUPT
 70
     0
  9
$DIMDEC
 70
     2
  9
$DIMTDEC
 70
     2
  9
$DIMALTU
 70
     2
  9
$DIMALTTD
 70
     3
  9
$DIMTXSTY
  7
Standard
  9
$DIMAUNIT
 70
     0
  9
$DIMADEC
 70
     2
  9
$DIMALTRND
 40
0.0
  9
$DIMAZIN
 70
     0
  9
$DIMDSEP
 70
    44
  9
$DIMATFIT
 70
     3
  9
$DIMFRAC
 70
     0
  9
$DIMLDRBLK
  1

  9
$DIMLUNIT
 70
     2
  9
$DIMLWD
 70
    -2
  9
$DIMLWE
 70
    -2
  9
$DIMTMOVE
 70
     0
  9
$LUNITS
 70
     2
  9
$LUPREC
 70
     2
  9
$SKETCHINC
 40
1.0
  9
$FILLETRAD
 40
10.0
  9
$AUNITS
 70
     0
  9
$AUPREC
 70
     2
  9
$MENU
  1
.
  9
$ELEVATION
 40
0.0
  9
$PELEVATION
 40
0.0
  9
$THICKNESS
 40
0.0
  9
$LIMCHECK
 70
     0
  9
$CHAMFERA
 40
0.0
  9
$CHAMFERB
 40
0.0
  9
$CHAMFERC
 40
0.0
  9
$CHAMFERD
 40
0.0
  9
$SKPOLY
 70
     0
  9
$TDCREATE
 40
2458985.663610197
  9
$TDUCREATE
 40
2458985.538610197
  9
$TDUPDATE
 40
2458985.663610451
  9
$TDUUPDATE
 40
2458985.538610451
  9
$TDINDWG
 40
0.0000000116
  9
$TDUSRTIMER
 40
0.0000000116
  9
$USRTIMER
 70
     1
  9
$ANGBASE
 50
0.0
  9
$ANGDIR
 70
     0
  9
$PDMODE
 70
     0
  9
$PDSIZE
 40
-1.0
  9
$PLINEWID
 40
0.0
  9
$SPLFRAME
 70
     0
  9
$SPLINETYPE
 70
     6
  9
$SPLINESEGS
 70
     8
  9
$HANDSEED
  5
C0
  9
$SURFTAB1
 70
     6
  9
$SURFTAB2
 70
     6
  9
$SURFTYPE
 70
     6
  9
$SURFU
 70
     6
  9
$SURFV
 70
     6
  9
$UCSBASE
  2

  9
$UCSNAME
  2

  9
$UCSORG
 10
0.0
 20
0.0
 30
0.0
  9
$UCSXDIR
 10
1.0
 20
0.0
 30
0.0
  9
$UCSYDIR
 10
0.0
 20
1.0
 30
0.0
  9
$UCSORTHOREF
  2

  9
$UCSORTHOVIEW
 70
     0
  9
$UCSORGTOP
 10
0.0
 20
0.0
 30
0.0
  9
$UCSORGBOTTOM
 10
0.0
 20
0.0
 30
0.0
  9
$UCSORGLEFT
 10
0.0
 20
0.0
 30
0.0
  9
$UCSORGRIGHT
 10
0.0
 20
0.0
 30
0.0
  9
$UCSORGFRONT
 10
0.0
 20
0.0
 30
0.0
  9
$UCSORGBACK
 10
0.0
 20
0.0
 30
0.0
  9
$PUCSBASE
  2

  9
$PUCSNAME
  2

  9
$PUCSORG
 10
0.0
 20
0.0
 30
0.0
  9
$PUCSXDIR
 10
1.0
 20
0.0
 30
0.0
  9
$PUCSYDIR
 10
0.0
 20
1.0
 30
0.0
  9
$PUCSORTHOREF
  2

  9
$PUCSORTHOVIEW
 70
     0
  9
$PUCSORGTOP
 10
0.0
 20
0.0
 30
0.0
  9
$PUCSORGBOTTOM
 10
0.0
 20
0.0
 30
0.0
  9
$PUCSORGLEFT
 10
0.0
 20
0.0
 30
0.0
  9
$PUCSORGRIGHT
 10
0.0
 20
0.0
 30
0.0
  9
$PUCSORGFRONT
 10
0.0
 20
0.0
 30
0.0
  9
$PUCSORGBACK
 10
0.0
 20
0.0
 30
0.0
  9
$USERI1
 70
     0
  9
$USERI2
 70
     0
  9
$USERI3
 70
     0
  9
$USERI4
 70
     0
  9
$USERI5
 70
     0
  9
$USERR1
 40
0.0
  9
$USERR2
 40
0.0
  9
$USERR3
 40
0.0
  9
$USERR4
 40
0.0
  9
$USERR5
 40
0.0
  9
$WORLDVIEW
 70
     1
  9
$SHADEDGE
 70
     3
  9
$SHADEDIF
 70
    70
  9
$TILEMODE
 70
     1
  9
$MAXACTVP
 70
    64
  9
$PINSBASE
 10
0.0
 20
0.0
 30
0.0
  9
$PLIMCHECK
 70
     0
  9
$PEXTMIN
 10
1.0000000000E+20
 20
1.0000000000E+20
 30
1.0000000000E+20
  9
$PEXTMAX
 10
-1.0000000000E+20
 20
-1.0000000000E+20
 30
-1.0000000000E+20
  9
$PLIMMIN
 10
0.0
 20
0.0
  9
$PLIMMAX
 10
420.0
 20
297.0
  9
$UNITMODE
 70
     0
  9
$VISRETAIN
 70
     1
  9
$PLINEGEN
 70
     0
  9
$PSLTSCALE
 70
     1
  9
$TREEDEPTH
 70
  3020
  9
$CMLSTYLE
  2
Standard
  9
$CMLJUST
 70
     0
  9
$CMLSCALE
 40
20.0
  9
$PROXYGRAPHICS
 70
     1
  9
$MEASUREMENT
 70
     1
  9
$CELWEIGHT
370
    -1
  9
$ENDCAPS
280
     0
  9
$JOINSTYLE
280
     0
  9
$LWDISPLAY
290
     1
  9
$INSUNITS
 70
     4
  9
$HYPERLINKBASE
  1

  9
$STYLESHEET
  1

  9
$XEDIT
290
     1
  9
$CEPSNTYPE
380
     0
  9
$PSTYLEMODE
290
     1
  9
$FINGERPRINTGUID
  2
{21b76bca-b5c6-4e19-a03b-968d9a19e86e}
  9
$VERSIONGUID
  2
{FAEB1C32-E019-11D5-929B-00C0DF256EC4}
  9
$EXTNAMES
290
     1
  9
$PSVPSCALE
 40
0.0
  9
$OLESTARTUP
290
     0
  0
ENDSEC
  0
SECTION
  2
CLASSES
  0
CLASS
  1
ACDBDICTIONARYWDFLT
  2
AcDbDictionaryWithDefault
  3
ObjectDBX Classes
 90
        0
280
     0
281
     0
  0
CLASS
  1
VISUALSTYLE
  2
AcDbVisualStyle
  3
ObjectDBX Classes
 90
     4095
280
     0
281
     0
  0
CLASS
  1
MATERIAL
  2
AcDbMaterial
  3
ObjectDBX Classes
 90
     1153
280
     0
281
     0
  0
CLASS
  1
SCALE
  2
AcDbScale
  3
ObjectDBX Classes
 90
     1153
280
     0
281
     0
  0
CLASS
  1
TABLESTYLE
  2
AcDbTableStyle
  3
ObjectDBX Classes
 90
     4095
280
     0
281
     0
  0
CLASS
  1
MLEADERSTYLE
  2
AcDbMLeaderStyle
  3
ACDB_MLEADERSTYLE_CLASS
 90
     4095
280
     0
281
     0
  0
CLASS
  1
SUN
  2
AcDbSun
  3
SCENEOE
 90
     1153
280
     0
281
     0
  0
CLASS
  1
ACDBPLACEHOLDER
  2
AcDbPlaceHolder
  3
ObjectDBX Classes
 90
        0
280
     0
281
     0
  0
CLASS
  1
LAYOUT
  2
AcDbLayout
  3
ObjectDBX Classes
 90
        0
280
     0
281
     0
  0
ENDSEC
  0
SECTION
  2
TABLES
  0
TABLE
  2
VPORT
  5
8
330
0
100
AcDbSymbolTable
 70
     1
  0
VPORT
  5
29
330
8
100
AcDbSymbolTableRecord
100
AcDbViewportTableRecord
  2
*Active
 70
     0
 10
0.0
 20
0.0
 11
1.0
 21
1.0
 12
139.7
 22
107.95
 13
0.0
 23
0.0
 14
10.0
 24
10.0
 15
10.0
 25
10.0
 16
0.0
 26
0.0
 36
1.0
 17
0.0
 27
0.0
 37
0.0
 40
215.9
 41
1.2941176471
 42
50.0
 43
0.0
 44
0.0
 50
0.0
 51
0.0
 71
     0
 72
  2000
 73
     1
 74
     3
 75
     0
 76
     0
 77
     0
 78
     0
281
     0
 65
     1
110
0.0
120
0.0
130
0.0
111
1.0
121
0.0
131
0.0
112
0.0
122
1.0
132
0.0
 79
     0
146
0.0
  0
ENDTAB
  0
TABLE
  2
LTYPE
  5
5
330
0
100
AcDbSymbolTable
 70
     6
  0
LTYPE
  5
14
330
5
100
AcDbSymbolTableRecord
100
AcDbLinetypeTableRecord
  2
ByBlock
 70
     0
  3

 72
    65
 73
     0
 40
0.0
  0
LTYPE
  5
15
330
5
100
AcDbSymbolTableRecord
100
AcDbLinetypeTableRecord
  2
ByLayer
 70
     0
  3

 72
    65
 73
     0
 40
0.0
  0
LTYPE
  5
16
330
5
100
AcDbSymbolTableRecord
100
AcDbLinetypeTableRecord
  2
Continuous
 70
     0
  3
Solid line
 72
    65
 73
     0
 40
0.0
  0
LTYPE
  5
6E
330
5
100
AcDbSymbolTableRecord
100
AcDbLinetypeTableRecord
  2
HIDDEN
 70
     0
  3
Hidden __ __ __ __ __ __ __ __ __ __ __ __ __ __
 72
    65
 73
     2
 40
1.905
 49
1.27
 74
     0
 49
-0.635
 74
     0
  0
LTYPE
  5
6F
330
5
100
AcDbSymbolTableRecord
100
AcDbLinetypeTableRecord
  2
PHANTOM
 70
     0
  3
Phantom ______  __  __  ______  __  __  ______
 72
    65
 73
     6
 40
12.7
 49
6.35
 74
     0
 49
-1.27
 74
     0
 49
1.27
 74
     0
 49
-1.27
 74
     0
 49
1.27
 74
     0
 49
-1.27
 74
     0
  0
LTYPE
  5
70
330
5
100
AcDbSymbolTableRecord
100
AcDbLinetypeTableRecord
  2
CENTER
 70
     0
  3
Center ____ _ ____ _ ____ _ ____ _ ____ _ ____
 72
    65
 73
     4
 40
10.16
 49
6.35
 74
     0
 49
-1.27
 74
     0
 49
1.27
 74
     0
 49
-1.27
 74
     0
  0
LTYPE
  5
71
330
5
100
AcDbSymbolTableRecord
100
AcDbLinetypeTableRecord
  2
CENTERX2
 70
     0
  3
Center (2x) ________  __  ________  __  _____
 72
    65
 73
     4
 40
20.32
 49
12.7
 74
     0
 49
-2.54
 74
     0
 49
2.54
 74
     0
 49
-2.54
 74
     0
  0
LTYPE
  5
72
330
5
100
AcDbSymbolTableRecord
100
AcDbLinetypeTableRecord
  2
DOT2
 70
     0
  3
Dot (.5x) ........................................
 72
    65
 73
     2
 40
0.635
 49
0.0
 74
     0
 49
-0.635
 74
     0
  0
ENDTAB
  0
TABLE
  2
LAYER
  5
2
330
0
100
AcDbSymbolTable
 70
    17
  0
LAYER
  5
10
330
2
100
AcDbSymbolTableRecord
100
AcDbLayerTableRecord
  2
0
 70
     0
 62
     7
  6
Continuous
370
    -3
390
F
  0
LAYER
  5
73
330
2
100
AcDbSymbolTableRecord
100
AcDbLayerTableRecord
  2
FORMAT
 70
     0
 62
     7
  6
Continuous
370
    -3
390
F
  0
LAYER
  5
74
330
2
100
AcDbSymbolTableRecord
100
AcDbLayerTableRecord
  2
YARDIMCI_GEOMETRI
 70
     0
 62
    -6
  6
Continuous
290
     0
370
    -3
390
F
  0
LAYER
  5
75
330
2
100
AcDbSymbolTableRecord
100
AcDbLayerTableRecord
  2
SAYFA_CERCEVESI
 70
     0
 62
     7
  6
Continuous
370
    25
390
F
  0
LAYER
  5
76
330
2
100
AcDbSymbolTableRecord
100
AcDbLayerTableRecord
  2
ANTET
 70
     0
 62
     7
  6
Continuous
370
    -3
390
F
  0
LAYER
  5
77
330
2
100
AcDbSymbolTableRecord
100
AcDbLayerTableRecord
  2
OLCU
 70
     0
 62
   150
  6
Continuous
370
    -3
390
F
  0
LAYER
  5
78
330
2
100
AcDbSymbolTableRecord
100
AcDbLayerTableRecord
  2
METIN
 70
     0
 62
    96
  6
Continuous
370
    -3
390
F
  0
LAYER
  5
79
330
2
100
AcDbSymbolTableRecord
100
AcDbLayerTableRecord
  2
BALON
 70
     0
 62
     5
  6
Continuous
370
    -3
390
F
  0
LAYER
  5
7A
330
2
100
AcDbSymbolTableRecord
100
AcDbLayerTableRecord
  2
VURGU
 70
     0
 62
     7
  6
Continuous
370
    -3
390
F
  0
LAYER
  5
7B
330
2
100
AcDbSymbolTableRecord
100
AcDbLayerTableRecord
  2
SILIK
 70
     0
 62
     7
  6
Continuous
370
    -3
390
F
  0
LAYER
  5
7C
330
2
100
AcDbSymbolTableRecord
100
AcDbLayerTableRecord
  2
MODEL
 70
     0
 62
     7
  6
Continuous
370
    -3
390
F
  0
LAYER
  5
7D
330
2
100
AcDbSymbolTableRecord
100
AcDbLayerTableRecord
  2
DETAYLANDıRMA
 70
     0
 62
   190
  6
Continuous
370
    -3
390
F
  0
LAYER
  5
7E
330
2
100
AcDbSymbolTableRecord
100
AcDbLayerTableRecord
  2
TOLERANS
 70
     0
 62
   230
  6
Continuous
370
    -3
390
F
  0
LAYER
  5
7F
330
2
100
AcDbSymbolTableRecord
100
AcDbLayerTableRecord
  2
MERKEZ_CIZGILERI
 70
     0
 62
    30
  6
Continuous
370
    -3
390
F
  0
LAYER
  5
80
330
2
100
AcDbSymbolTableRecord
100
AcDbLayerTableRecord
  2
KESIT-DETAY_CIZGILERI
 70
     0
 62
     7
  6
Continuous
370
    -3
390
F
  0
LAYER
  5
81
330
2
100
AcDbSymbolTableRecord
100
AcDbLayerTableRecord
  2
\U+041E\U+0421\U+0415\U+0412\U+042B\U+0415
 70
     0
 62
     7
  6
Continuous
370
    -3
390
F
  0
LAYER
  5
82
330
2
100
AcDbSymbolTableRecord
100
AcDbLayerTableRecord
  2
\U+0412\U+041E\U+0414\U+042F\U+041D\U+042B\U+0415_\U+0417\U+041D\U+0410\U+041A\U+0418
 70
     0
 62
    11
  6
Continuous
370
    -3
390
F
  0
ENDTAB
  0
TABLE
  2
STYLE
  5
3
330
0
100
AcDbSymbolTable
 70
     1
  0
STYLE
  5
11
330
3
100
AcDbSymbolTableRecord
100
AcDbTextStyleTableRecord
  2
Standard
 70
     0
 40
0.0
 41
1.0
 50
0.0
 71
     0
 42
3.5
  3
txt
  4

  0
ENDTAB
  0
TABLE
  2
VIEW
  5
6
330
0
100
AcDbSymbolTable
 70
     0
  0
ENDTAB
  0
TABLE
  2
UCS
  5
7
330
0
100
AcDbSymbolTable
 70
     0
  0
ENDTAB
  0
TABLE
  2
APPID
  5
9
330
0
100
AcDbSymbolTable
 70
     1
  0
APPID
  5
12
330
9
100
AcDbSymbolTableRecord
100
AcDbRegAppTableRecord
  2
ACAD
 70
     0
  0
ENDTAB
  0
TABLE
  2
DIMSTYLE
  5
A
330
0
100
AcDbSymbolTable
 70
     1
100
AcDbDimStyleTable
  0
DIMSTYLE
105
27
330
A
100
AcDbSymbolTableRecord
100
AcDbDimStyleTableRecord
  2
ISO-25
 70
     0
 41
2.5
 42
0.625
 43
3.75
 44
1.25
 73
     0
 74
     0
 77
     1
 78
     8
140
2.5
141
2.5
143
0.0393700787
147
0.625
171
     3
172
     1
178
     0
271
     2
272
     2
274
     3
278
    44
283
     0
284
     8
340
11
  0
ENDTAB
  0
TABLE
  2
BLOCK_RECORD
  5
1
330
0
100
AcDbSymbolTable
 70
     1
  0
BLOCK_RECORD
  5
1F
330
1
100
AcDbSymbolTableRecord
100
AcDbBlockTableRecord
  2
*Model_Space
340
22
  0
BLOCK_RECORD
  5
1B
330
1
100
AcDbSymbolTableRecord
100
AcDbBlockTableRecord
  2
*Paper_Space
340
1E
  0
BLOCK_RECORD
  5
23
330
1
100
AcDbSymbolTableRecord
100
AcDbBlockTableRecord
  2
*Paper_Space0
340
26
  0
ENDTAB
  0
ENDSEC
  0
SECTION
  2
BLOCKS
  0
BLOCK
  5
20
330
1F
100
AcDbEntity
  8
0
100
AcDbBlockBegin
  2
*Model_Space
 70
     0
 10
0.0
 20
0.0
 30
0.0
  3
*Model_Space
  1

  0
ENDBLK
  5
21
330
1F
100
AcDbEntity
  8
0
100
AcDbBlockEnd
  0
BLOCK
  5
1C
330
1B
100
AcDbEntity
 67
     1
  8
0
100
AcDbBlockBegin
  2
*Paper_Space
 70
     0
 10
0.0
 20
0.0
 30
0.0
  3
*Paper_Space
  1

  0
ENDBLK
  5
1D
330
1B
100
AcDbEntity
 67
     1
  8
0
100
AcDbBlockEnd
  0
BLOCK
  5
24
330
23
100
AcDbEntity
  8
0
100
AcDbBlockBegin
  2
*Paper_Space0
 70
     0
 10
0.0
 20
0.0
 30
0.0
  3
*Paper_Space0
  1

  0
ENDBLK
  5
25
330
23
100
AcDbEntity
  8
0
100
AcDbBlockEnd
  0
ENDSEC
  0
SECTION
  2
ENTITIES
  0
CIRCLE
  5
83
330
1F
100
AcDbEntity
  8
0
  6
Continuous
 62
     7
370
    25
100
AcDbCircle
 10
139.0311018031
 20
106.1259461528
 30
0.0
 40
250.0
  0
CIRCLE
  5
84
330
1F
100
AcDbEntity
  8
0
  6
Continuous
 62
     7
370
    25
100
AcDbCircle
 10
139.0311018031
 20
106.1259461528
 30
0.0
 40
220.3
  0
CIRCLE
  5
85
330
1F
100
AcDbEntity
  8
0
  6
Continuous
 62
     7
370
    25
100
AcDbCircle
 10
139.0311018031
 20
106.1259461528
 30
0.0
 40
265.0
  0
CIRCLE
  5
86
330
1F
100
AcDbEntity
  8
0
  6
Continuous
 62
     7
370
    25
100
AcDbCircle
 10
139.0311018031
 20
106.1259461528
 30
0.0
 40
295.0
  0
LINE
  5
87
330
1F
100
AcDbEntity
  8
0
  6
Continuous
 62
     7
370
    25
100
AcDbLine
 10
434.0311018031
 20
693.5804217122
 30
0.0
 11
434.0311018031
 21
739.5804217122
 31
0.0
  0
LINE
  5
88
330
1F
100
AcDbEntity
  8
0
  6
Continuous
 62
     7
370
    25
100
AcDbLine
 10
-155.9688981969
 20
739.5804217122
 30
0.0
 11
-155.9688981969
 21
693.5804217122
 31
0.0
  0
LINE
  5
89
330
1F
100
AcDbEntity
  8
0
  6
Continuous
 62
     7
370
    25
100
AcDbLine
 10
404.0311018031
 20
739.5804217122
 30
0.0
 11
389.0311018031
 21
768.5804217122
 31
0.0
  0
LINE
  5
8A
330
1F
100
AcDbEntity
  8
0
  6
Continuous
 62
     7
370
    25
100
AcDbLine
 10
-110.9688981969
 20
768.5804217122
 30
0.0
 11
-125.9688981969
 21
739.5804217122
 31
0.0
  0
LINE
  5
8B
330
1F
100
AcDbEntity
  8
0
  6
Continuous
 62
     7
370
    25
100
AcDbLine
 10
389.0311018031
 20
768.5804217122
 30
0.0
 11
389.0311018031
 21
813.5804217122
 31
0.0
  0
LINE
  5
8C
330
1F
100
AcDbEntity
  8
0
  6
Continuous
 62
     7
370
    25
100
AcDbLine
 10
-110.9688981969
 20
813.5804217122
 30
0.0
 11
-110.9688981969
 21
768.5804217122
 31
0.0
  0
LINE
  5
8D
330
1F
100
AcDbEntity
  8
0
  6
Continuous
 62
     7
370
    25
100
AcDbLine
 10
434.0311018031
 20
693.5804217122
 30
0.0
 11
-155.9688981969
 21
693.5804217122
 31
0.0
  0
LINE
  5
8E
330
1F
100
AcDbEntity
  8
0
  6
Continuous
 62
     7
370
    25
100
AcDbLine
 10
434.0311018031
 20
739.5804217122
 30
0.0
 11
-155.9688981969
 21
739.5804217122
 31
0.0
  0
LINE
  5
8F
330
1F
100
AcDbEntity
  8
0
  6
Continuous
 62
     7
370
    25
100
AcDbLine
 10
389.0311018031
 20
768.5804217122
 30
0.0
 11
-110.9688981969
 21
768.5804217122
 31
0.0
  0
LINE
  5
90
330
1F
100
AcDbEntity
  8
0
  6
Continuous
 62
     7
370
    25
100
AcDbLine
 10
389.0311018031
 20
813.5804217122
 30
0.0
 11
-110.9688981969
 21
813.5804217122
 31
0.0
  0
LINE
  5
91
330
1F
100
AcDbEntity
  8
0
  6
Continuous
 62
     7
370
    25
100
AcDbLine
 10
-484.8056571466
 20
401.1259461528
 30
0.0
 11
-530.8056571466
 21
401.1259461528
 31
0.0
  0
LINE
  5
92
330
1F
100
AcDbEntity
  8
0
  6
Continuous
 62
     7
370
    25
100
AcDbLine
 10
-530.8056571466
 20
-188.8740538472
 30
0.0
 11
-484.8056571466
 21
-188.8740538472
 31
0.0
  0
LINE
  5
93
330
1F
100
AcDbEntity
  8
0
  6
Continuous
 62
     7
370
    25
100
AcDbLine
 10
-530.8056571466
 20
371.1259461528
 30
0.0
 11
-559.8056571466
 21
356.1259461528
 31
0.0
  0
LINE
  5
94
330
1F
100
AcDbEntity
  8
0
  6
Continuous
 62
     7
370
    25
100
AcDbLine
 10
-559.8056571466
 20
-143.8740538472
 30
0.0
 11
-530.8056571466
 21
-158.8740538472
 31
0.0
  0
LINE
  5
95
330
1F
100
AcDbEntity
  8
0
  6
Continuous
 62
     7
370
    25
100
AcDbLine
 10
-559.8056571466
 20
356.1259461528
 30
0.0
 11
-604.8056571466
 21
356.1259461528
 31
0.0
  0
LINE
  5
96
330
1F
100
AcDbEntity
  8
0
  6
Continuous
 62
     7
370
    25
100
AcDbLine
 10
-604.8056571466
 20
-143.8740538472
 30
0.0
 11
-559.8056571466
 21
-143.8740538472
 31
0.0
  0
LINE
  5
97
330
1F
100
AcDbEntity
  8
0
  6
Continuous
 62
     7
370
    25
100
AcDbLine
 10
-484.8056571466
 20
401.1259461528
 30
0.0
 11
-484.8056571466
 21
-188.8740538472
 31
0.0
  0
LINE
  5
98
330
1F
100
AcDbEntity
  8
0
  6
Continuous
 62
     7
370
    25
100
AcDbLine
 10
-530.8056571466
 20
401.1259461528
 30
0.0
 11
-530.8056571466
 21
-188.8740538472
 31
0.0
  0
LINE
  5
99
330
1F
100
AcDbEntity
  8
0
  6
Continuous
 62
     7
370
    25
100
AcDbLine
 10
-559.8056571466
 20
356.1259461528
 30
0.0
 11
-559.8056571466
 21
-143.8740538472
 31
0.0
  0
LINE
  5
9A
330
1F
100
AcDbEntity
  8
0
  6
Continuous
 62
     7
370
    25
100
AcDbLine
 10
-604.8056571466
 20
356.1259461528
 30
0.0
 11
-604.8056571466
 21
-143.8740538472
 31
0.0
  0
LINE
  5
9B
330
1F
100
AcDbEntity
  8
0
  6
Continuous
 62
     7
370
    25
100
AcDbLine
 10
-155.9688981969
 20
-604.8342106128
 30
0.0
 11
-155.9688981969
 21
-650.8342106128
 31
0.0
  0
LINE
  5
9C
330
1F
100
AcDbEntity
  8
0
  6
Continuous
 62
     7
370
    25
100
AcDbLine
 10
434.0311018031
 20
-650.8342106128
 30
0.0
 11
434.0311018031
 21
-604.8342106128
 31
0.0
  0
LINE
  5
9D
330
1F
100
AcDbEntity
  8
0
  6
Continuous
 62
     7
370
    25
100
AcDbLine
 10
-125.9688981969
 20
-650.8342106128
 30
0.0
 11
-110.9688981969
 21
-679.8342106128
 31
0.0
  0
LINE
  5
9E
330
1F
100
AcDbEntity
  8
0
  6
Continuous
 62
     7
370
    25
100
AcDbLine
 10
389.0311018031
 20
-679.8342106128
 30
0.0
 11
404.0311018031
 21
-650.8342106128
 31
0.0
  0
LINE
  5
9F
330
1F
100
AcDbEntity
  8
0
  6
Continuous
 62
     7
370
    25
100
AcDbLine
 10
-110.9688981969
 20
-679.8342106128
 30
0.0
 11
-110.9688981969
 21
-724.8342106128
 31
0.0
  0
LINE
  5
A0
330
1F
100
AcDbEntity
  8
0
  6
Continuous
 62
     7
370
    25
100
AcDbLine
 10
389.0311018031
 20
-724.8342106128
 30
0.0
 11
389.0311018031
 21
-679.8342106128
 31
0.0
  0
LINE
  5
A1
330
1F
100
AcDbEntity
  8
0
  6
Continuous
 62
     7
370
    25
100
AcDbLine
 10
-155.9688981969
 20
-604.8342106128
 30
0.0
 11
434.0311018031
 21
-604.8342106128
 31
0.0
  0
LINE
  5
A2
330
1F
100
AcDbEntity
  8
0
  6
Continuous
 62
     7
370
    25
100
AcDbLine
 10
-155.9688981969
 20
-650.8342106128
 30
0.0
 11
434.0311018031
 21
-650.8342106128
 31
0.0
  0
LINE
  5
A3
330
1F
100
AcDbEntity
  8
0
  6
Continuous
 62
     7
370
    25
100
AcDbLine
 10
-110.9688981969
 20
-679.8342106128
 30
0.0
 11
389.0311018031
 21
-679.8342106128
 31
0.0
  0
LINE
  5
A4
330
1F
100
AcDbEntity
  8
0
  6
Continuous
 62
     7
370
    25
100
AcDbLine
 10
-110.9688981969
 20
-724.8342106128
 30
0.0
 11
389.0311018031
 21
-724.8342106128
 31
0.0
  0
LINE
  5
A5
330
1F
100
AcDbEntity
  8
0
  6
Continuous
 62
     7
370
    25
100
AcDbLine
 10
788.5209684674
 20
-188.8740538472
 30
0.0
 11
834.5209684674
 21
-188.8740538472
 31
0.0
  0
LINE
  5
A6
330
1F
100
AcDbEntity
  8
0
  6
Continuous
 62
     7
370
    25
100
AcDbLine
 10
834.5209684674
 20
401.1259461528
 30
0.0
 11
788.5209684674
 21
401.1259461528
 31
0.0
  0
LINE
  5
A7
330
1F
100
AcDbEntity
  8
0
  6
Continuous
 62
     7
370
    25
100
AcDbLine
 10
834.5209684674
 20
-158.8740538472
 30
0.0
 11
863.5209684674
 21
-143.8740538472
 31
0.0
  0
LINE
  5
A8
330
1F
100
AcDbEntity
  8
0
  6
Continuous
 62
     7
370
    25
100
AcDbLine
 10
863.5209684674
 20
356.1259461528
 30
0.0
 11
834.5209684674
 21
371.1259461528
 31
0.0
  0
LINE
  5
A9
330
1F
100
AcDbEntity
  8
0
  6
Continuous
 62
     7
370
    25
100
AcDbLine
 10
863.5209684674
 20
-143.8740538472
 30
0.0
 11
908.5209684674
 21
-143.8740538472
 31
0.0
  0
LINE
  5
AA
330
1F
100
AcDbEntity
  8
0
  6
Continuous
 62
     7
370
    25
100
AcDbLine
 10
908.5209684674
 20
356.1259461528
 30
0.0
 11
863.5209684674
 21
356.1259461528
 31
0.0
  0
LINE
  5
AB
330
1F
100
AcDbEntity
  8
0
  6
Continuous
 62
     7
370
    25
100
AcDbLine
 10
788.5209684674
 20
106.1259461528
 30
0.0
 11
788.5209684674
 21
401.1259461528
 31
0.0
  0
LINE
  5
AC
330
1F
100
AcDbEntity
  8
0
  6
Continuous
 62
     7
370
    25
100
AcDbLine
 10
788.5209684674
 20
-188.8740538472
 30
0.0
 11
788.5209684674
 21
106.1259461528
 31
0.0
  0
LINE
  5
AD
330
1F
100
AcDbEntity
  8
0
  6
Continuous
 62
     7
370
    25
100
AcDbLine
 10
834.5209684674
 20
106.1259461528
 30
0.0
 11
834.5209684674
 21
401.1259461528
 31
0.0
  0
LINE
  5
AE
330
1F
100
AcDbEntity
  8
0
  6
Continuous
 62
     7
370
    25
100
AcDbLine
 10
834.5209684674
 20
-188.8740538472
 30
0.0
 11
834.5209684674
 21
106.1259461528
 31
0.0
  0
LINE
  5
AF
330
1F
100
AcDbEntity
  8
0
  6
Continuous
 62
     7
370
    25
100
AcDbLine
 10
863.5209684674
 20
106.1259461528
 30
0.0
 11
863.5209684674
 21
356.1259461528
 31
0.0
  0
LINE
  5
B0
330
1F
100
AcDbEntity
  8
0
  6
Continuous
 62
     7
370
    25
100
AcDbLine
 10
863.5209684674
 20
-143.8740538472
 30
0.0
 11
863.5209684674
 21
106.1259461528
 31
0.0
  0
LINE
  5
B1
330
1F
100
AcDbEntity
  8
0
  6
Continuous
 62
     7
370
    25
100
AcDbLine
 10
908.5209684674
 20
106.1259461528
 30
0.0
 11
908.5209684674
 21
356.1259461528
 31
0.0
  0
LINE
  5
B2
330
1F
100
AcDbEntity
  8
0
  6
Continuous
 62
     7
370
    25
100
AcDbLine
 10
908.5209684674
 20
-143.8740538472
 30
0.0
 11
908.5209684674
 21
106.1259461528
 31
0.0
  0
LINE
  5
B3
330
1F
100
AcDbEntity
  8
0
  6
Continuous
 62
     7
370
    25
100
AcDbLine
 10
1062.9980237045
 20
-339.6901753632
 30
0.0
 11
1030.4711117699
 21
-320.9127887913
 31
0.0
  0
LINE
  5
B4
330
1F
100
AcDbEntity
  8
0
  6
Continuous
 62
     7
370
    25
100
AcDbLine
 10
735.4950856423
 20
-831.8816175959
 30
0.0
 11
768.0219975769
 21
-850.6590041678
 31
0.0
  0
LINE
  5
B5
330
1F
100
AcDbEntity
  8
0
  6
Continuous
 62
     7
370
    25
100
AcDbLine
 10
987.4668436312
 20
-348.047069977
 30
0.0
 11
955.6470384778
 21
-329.677887461
 31
0.0
  0
LINE
  5
B6
330
1F
100
AcDbEntity
  8
0
  6
Continuous
 62
     7
370
    25
100
AcDbLine
 10
705.6673553188
 20
-762.7023186513
 30
0.0
 11
737.4871604722
 21
-781.0715011673
 31
0.0
  0
LWPOLYLINE
  5
B7
330
1F
100
AcDbEntity
  8
0
  6
Continuous
 62
     7
370
    25
100
AcDbPolyline
 90
       93
 70
   128
 43
0.0
 10
1062.9980237045
 20
-339.6901753632
 10
1066.7792505201
 20
-341.9879222797
 10
1071.6467332584
 20
-345.3060978397
 10
1076.3281449138
 20
-348.9220464036
 10
1080.8179065594
 20
-352.8314587771
 10
1085.1106676615
 20
-357.0296760395
 10
1089.2013124555
 20
-361.511695096
 10
1093.0849660428
 20
-366.2721746398
 10
1096.7570001999
 20
-371.3054415175
 10
1100.2130388944
 20
-376.6054974899
 10
1103.4489634996
 20
-382.1660263799
 10
1106.460917703
 20
-387.9804016004
 10
1109.245312102
 20
-394.0416940504
 10
1111.798828481
 20
-400.3426803733
 10
1114.1184237663
 20
-406.8758515644
 10
1116.2013336525
 20
-413.6334219203
 10
1118.0450758964
 20
-420.6073383167
 10
1119.6474532755
 20
-427.7892898056
 10
1121.0065562065
 20
-435.1707175197
 10
1122.1207650207
 20
-442.742824872
 10
1122.9887518944
 20
-450.4965880392
 10
1123.6094824312
 20
-458.4227667152
 10
1123.9822168949
 20
-466.511915123
 10
1124.1065110907
 20
-474.7543932716
 10
1123.9822168949
 20
-483.1403784441
 10
1123.6094824312
 20
-491.6598769034
 10
1122.9887518944
 20
-500.3027358023
 10
1122.1207650207
 20
-509.0586552824
 10
1121.0065562065
 20
-517.917200749
 10
1119.6474532755
 20
-526.8678153061
 10
1118.0450758964
 20
-535.8998323372
 10
1116.2013336525
 20
-545.0024882169
 10
1114.1184237663
 20
-554.1649351381
 10
1111.798828481
 20
-563.3762540397
 10
1109.245312102
 20
-572.625467619
 10
1106.460917703
 20
-581.9015534132
 10
1103.4489634996
 20
-591.1934569357
 10
1100.2130388944
 20
-600.4901048495
 10
1096.7570001999
 20
-609.7804181634
 10
1093.0849660428
 20
-619.0533254357
 10
1089.2013124555
 20
-628.2977759673
 10
1085.1106676615
 20
-637.502752972
 10
1080.8179065594
 20
-646.6572867048
 10
1076.3281449138
 20
-655.7504675346
 10
1071.6467332584
 20
-664.7714589462
 10
1066.7792505201
 20
-673.7095104535
 10
1061.7314973699
 20
-682.5539704117
 10
1056.5094893107
 20
-691.2942987108
 10
1051.1194495082
 20
-699.9200793362
 10
1045.5678013747
 20
-708.4210327822
 10
1039.8611609142
 20
-716.7870283019
 10
1034.0063288379
 20
-725.0080959805
 10
1028.0102824598
 20
-733.0744386161
 10
1021.8801673819
 20
-740.9764433958
 10
1015.6232889779
 20
-748.7046933512
 10
1009.2471036883
 20
-756.2499785808
 10
1002.7592101334
 20
-763.6033072255
 10
996.1673400587
 20
-770.7559161847
 10
989.4793491203
 20
-777.6992815591
 10
982.7032075233
 20
-784.425128809
 10
975.8469905238
 20
-790.925442615
 10
968.9188688051
 20
-797.1924764305
 10
961.9270987409
 20
-803.2187617127
 10
954.8800125555
 20
-808.9971168236
 10
947.7860083949
 20
-814.5206555882
 10
940.6535403178
 20
-819.782795501
 10
933.4911082213
 20
-824.7772655704
 10
926.3072477109
 20
-829.498113792
 10
919.1105199291
 20
-833.9397142419
 10
911.9095013523
 20
-838.0967737808
 10
904.7127735705
 20
-841.9643383623
 10
897.5289130601
 20
-845.5377989365
 10
890.3664809636
 20
-848.8128969431
 10
883.2340128865
 20
-851.7857293858
 10
876.1400087259
 20
-854.452753484
 10
869.0929225405
 20
-856.8107908947
 10
862.1011524763
 20
-858.8570315001
 10
855.1730307576
 20
-860.5890367567
 10
848.3168137581
 20
-862.0047426011
 10
841.5406721611
 20
-863.1024619098
 10
834.8526812227
 20
-863.88088651
 10
828.260811148
 20
-864.3390887384
 10
821.7729175931
 20
-864.4765225467
 10
815.3967323035
 20
-864.2930241526
 10
809.1398538995
 20
-863.7888122344
 10
803.0097388216
 20
-862.964487671
 10
797.0136924435
 20
-861.8210328257
 10
791.1588603672
 20
-860.3598103751
 10
785.4522199067
 20
-858.5825616856
 10
779.9005717732
 20
-856.4914047382
 10
774.5105319707
 20
-854.0888316041
 10
769.2885239115
 20
-851.377705475
 10
768.0219975769
 20
-850.6590041678
  0
LWPOLYLINE
  5
B8
330
1F
100
AcDbEntity
  8
0
  6
Continuous
 62
     7
370
    25
100
AcDbPolyline
 90
      128
 70
   128
 43
0.0
 10
918.9332880941
 20
-318.3683504098
 10
922.353100621
 20
-317.1190394751
 10
929.4001868063
 20
-314.7610020644
 10
936.3919568705
 20
-312.7147614589
 10
943.3200785892
 20
-310.9827562023
 10
950.1762955887
 20
-309.567050358
 10
956.9524371857
 20
-308.4693310493
 10
963.6404281241
 20
-307.690906449
 10
970.2322981988
 20
-307.2327042206
 10
976.7201917537
 20
-307.0952704123
 10
983.0963770433
 20
-307.2787688065
 10
989.3532554473
 20
-307.7829807247
 10
995.4833705252
 20
-308.607305288
 10
1001.4794169033
 20
-309.7507601334
 10
1007.3342489796
 20
-311.211982584
 10
1013.0408894401
 20
-312.9892312734
 10
1018.5925375737
 20
-315.0803882208
 10
1023.9825773762
 20
-317.4829613549
 10
1029.2045854353
 20
-320.194087484
 10
1034.2523385855
 20
-323.2105357077
 10
1039.1198213238
 20
-326.5287112678
 10
1043.8012329792
 20
-330.1446598317
 10
1048.2909946248
 20
-334.0540722051
 10
1052.5837557269
 20
-338.2522894675
 10
1056.6744005209
 20
-342.7343085241
 10
1060.5580541082
 20
-347.4947880679
 10
1064.2300882653
 20
-352.5280549456
 10
1067.6861269598
 20
-357.8281109179
 10
1070.922051565
 20
-363.388639808
 10
1073.9340057684
 20
-369.2030150285
 10
1076.7184001674
 20
-375.2643074785
 10
1079.2719165464
 20
-381.5652938013
 10
1081.5915118317
 20
-388.0984649925
 10
1083.6744217179
 20
-394.8560353484
 10
1085.5181639618
 20
-401.8299517448
 10
1087.1205413409
 20
-409.0119032337
 10
1088.4796442719
 20
-416.3933309477
 10
1089.5938530861
 20
-423.9654383001
 10
1090.4618399598
 20
-431.7192014673
 10
1091.0825704967
 20
-439.6453801433
 10
1091.4553049603
 20
-447.7345285511
 10
1091.5795991562
 20
-455.9770066997
 10
1091.4553049603
 20
-464.3629918722
 10
1091.0825704967
 20
-472.8824903315
 10
1090.4618399598
 20
-481.5253492304
 10
1089.5938530861
 20
-490.2812687104
 10
1088.4796442719
 20
-499.1398141771
 10
1087.1205413409
 20
-508.0904287342
 10
1085.5181639618
 20
-517.1224457653
 10
1083.6744217179
 20
-526.2251016449
 10
1081.5915118317
 20
-535.3875485662
 10
1079.2719165464
 20
-544.5988674678
 10
1076.7184001674
 20
-553.8480810471
 10
1073.9340057684
 20
-563.1241668413
 10
1070.922051565
 20
-572.4160703638
 10
1067.6861269598
 20
-581.7127182775
 10
1064.2300882653
 20
-591.0030315915
 10
1060.5580541082
 20
-600.2759388637
 10
1056.6744005209
 20
-609.5203893954
 10
1052.5837557269
 20
-618.7253664001
 10
1048.2909946248
 20
-627.8799001328
 10
1043.8012329792
 20
-636.9730809627
 10
1039.1198213238
 20
-645.9940723743
 10
1034.2523385855
 20
-654.9321238816
 10
1029.2045854353
 20
-663.7765838398
 10
1023.9825773762
 20
-672.5169121388
 10
1018.5925375737
 20
-681.1426927642
 10
1013.0408894401
 20
-689.6436462102
 10
1007.3342489796
 20
-698.00964173
 10
1001.4794169033
 20
-706.2307094085
 10
995.4833705252
 20
-714.2970520442
 10
989.3532554473
 20
-722.1990568239
 10
983.0963770433
 20
-729.9273067793
 10
976.7201917537
 20
-737.4725920088
 10
970.2322981988
 20
-744.8259206536
 10
963.6404281241
 20
-751.9785296128
 10
956.9524371857
 20
-758.9218949872
 10
950.1762955887
 20
-765.6477422371
 10
943.3200785892
 20
-772.1480560431
 10
936.3919568705
 20
-778.4150898585
 10
929.4001868063
 20
-784.4413751407
 10
922.353100621
 20
-790.2197302516
 10
915.2590964603
 20
-795.7432690163
 10
908.1266283832
 20
-801.0054089291
 10
900.9641962867
 20
-805.9998789985
 10
893.7803357763
 20
-810.7207272201
 10
886.5836079945
 20
-815.16232767
 10
879.3825894177
 20
-819.3193872089
 10
872.1858616359
 20
-823.1869517903
 10
865.0020011256
 20
-826.7604123646
 10
857.839569029
 20
-830.0355103712
 10
850.7071009519
 20
-833.0083428139
 10
843.6130967913
 20
-835.6753669121
 10
836.566010606
 20
-838.0334043228
 10
829.5742405417
 20
-840.0796449282
 10
822.646118823
 20
-841.8116501848
 10
815.7899018235
 20
-843.2273560292
 10
809.0137602266
 20
-844.3250753379
 10
802.3257692881
 20
-845.1034999381
 10
795.7338992134
 20
-845.5617021665
 10
789.2460056585
 20
-845.6991359748
 10
782.8698203689
 20
-845.5156375806
 10
776.612941965
 20
-845.0114256624
 10
770.482826887
 20
-844.1871010991
 10
764.486780509
 20
-843.0436462537
 10
758.6319484327
 20
-841.5824238031
 10
752.9253079721
 20
-839.8051751137
 10
747.3736598386
 20
-837.7140181663
 10
741.9836200361
 20
-835.3114450322
 10
736.7616119769
 20
-832.6003189031
 10
731.7138588267
 20
-829.5838706794
 10
726.8463760884
 20
-826.2656951193
 10
722.164964433
 20
-822.6497465554
 10
717.6752027874
 20
-818.740334182
 10
713.3824416853
 20
-814.5421169196
 10
709.2917968913
 20
-810.060097863
 10
705.4081433041
 20
-805.2996183192
 10
701.7361091469
 20
-800.2663514415
 10
698.2800704525
 20
-794.9662954692
 10
695.0441458472
 20
-789.4057665791
 10
692.0321916438
 20
-783.5913913586
 10
689.2477972449
 20
-777.5300989086
 10
686.6942808658
 20
-771.2291125858
 10
684.3746855805
 20
-764.6959413946
 10
682.2917756943
 20
-757.9383710387
 10
680.4480334505
 20
-750.9644546423
 10
678.8456560713
 20
-743.7825031534
 10
677.5136809035
 20
-736.5646884514
  0
LWPOLYLINE
  5
B9
330
1F
100
AcDbEntity
  8
0
  6
Continuous
 62
     7
370
    25
100
AcDbPolyline
 90
      106
 70
   128
 43
0.0
 10
964.023379623
 20
-334.5134462763
 10
968.6626727815
 20
-334.4966354256
 10
974.6918286467
 20
-334.7579383994
 10
980.5986172546
 20
-335.3416614319
 10
986.3751571579
 20
-336.2470256595
 10
992.0137407006
 20
-337.4728230517
 10
997.5068443023
 20
-339.0174180232
 10
1002.847138497
 20
-340.8787496157
 10
1008.0274977127
 20
-343.0543342485
 10
1013.0410097792
 20
-345.541269032
 10
1017.880985151
 20
-348.3362356409
 10
1022.5409658333
 20
-351.4355047421
 10
1027.0147339985
 20
-354.8349409709
 10
1031.2963202833
 20
-358.5300084483
 10
1035.3800117532
 20
-362.5157768339
 10
1039.2603595252
 20
-366.7869279038
 10
1042.9321860387
 20
-371.3377626472
 10
1046.3905919636
 20
-376.1622088705
 10
1049.6309627376
 20
-381.2538292994
 10
1052.6489747235
 20
-386.6058301682
 10
1055.440600978
 20
-392.2110702847
 10
1058.002116625
 20
-398.0620705586
 10
1060.330103826
 20
-404.1510239814
 10
1062.42145634
 20
-410.4698060424
 10
1064.2733836685
 20
-417.0099855704
 10
1065.8834147788
 20
-423.7628359823
 10
1067.2494014013
 20
-430.7193469279
 10
1068.3695208954
 20
-437.870236312
 10
1069.2422786821
 20
-445.2059626795
 10
1069.8665102379
 20
-452.7167379469
 10
1070.2413826486
 20
-460.3925404622
 10
1070.3663957206
 20
-468.2231283771
 10
1070.2413826486
 20
-476.1980533126
 10
1069.8665102379
 20
-484.3066743003
 10
1069.2422786821
 20
-492.538171981
 10
1068.3695208954
 20
-500.8815630404
 10
1067.2494014013
 20
-509.3257148645
 10
1065.8834147788
 20
-517.8593603942
 10
1064.2733836685
 20
-526.4711131583
 10
1062.42145634
 20
-535.149482467
 10
1060.330103826
 20
-543.882888744
 10
1058.002116625
 20
-552.6596789768
 10
1055.440600978
 20
-561.4681422654
 10
1052.6489747235
 20
-570.2965254488
 10
1049.6309627376
 20
-579.1330487863
 10
1046.3905919636
 20
-587.9659216761
 10
1042.9321860387
 20
-596.7833583872
 10
1039.2603595252
 20
-605.5735937849
 10
1035.3800117532
 20
-614.3248990296
 10
1031.2963202833
 20
-623.0255972261
 10
1027.0147339985
 20
-631.6640790044
 10
1022.5409658333
 20
-640.2288180102
 10
1017.880985151
 20
-648.7083862843
 10
1013.0410097792
 20
-657.0914695111
 10
1008.0274977127
 20
-665.3668821153
 10
1002.847138497
 20
-673.523582187
 10
997.5068443023
 20
-681.5506862145
 10
992.0137407006
 20
-689.437483607
 10
986.3751571579
 20
-697.1734509848
 10
980.5986172546
 20
-704.7482662215
 10
974.6918286467
 20
-712.1518222164
 10
968.6626727815
 20
-719.3742403807
 10
962.5191943813
 20
-726.4058838182
 10
956.2695907095
 20
-733.2373701843
 10
949.9222006325
 20
-739.8595842042
 10
943.4854934935
 20
-746.2636898364
 10
936.9680578121
 20
-752.4411420618
 10
930.3785898237
 20
-758.3836982857
 10
923.725881877
 20
-764.0834293361
 10
917.018810702
 20
-769.5327300431
 10
910.2663255655
 20
-774.7243293871
 10
903.4774363304
 20
-779.6513002002
 10
896.6612014339
 20
-784.3070684091
 10
889.8267158003
 20
-788.6854218072
 10
882.9830987061
 20
-792.7805183433
 10
876.1394816119
 20
-796.5868939166
 10
869.3049959784
 20
-800.0994696679
 10
862.4887610818
 20
-803.3135587559
 10
855.6998718468
 20
-806.224872611
 10
848.9473867103
 20
-808.8295266577
 10
842.2403155352
 20
-811.1240454975
 10
835.5876075886
 20
-813.1053675466
 10
828.9981396002
 20
-814.7708491204
 10
822.4807039187
 20
-816.1182679615
 10
816.0439967798
 20
-817.1458262045
 10
809.6966067028
 20
-817.852152775
 10
803.4470030309
 20
-818.2363052194
 10
797.3035246308
 20
-818.2977709616
 10
791.2743687656
 20
-818.0364679877
 10
785.3675801577
 20
-817.4527449552
 10
779.5910402543
 20
-816.5473807276
 10
773.9524567116
 20
-815.3215833354
 10
768.4593531099
 20
-813.776988364
 10
763.1190589152
 20
-811.9156567714
 10
757.9386996995
 20
-809.7400721386
 10
752.925187633
 20
-807.2531373551
 10
748.0852122612
 20
-804.4581707462
 10
743.425231579
 20
-801.358901645
 10
738.9514634137
 20
-797.9594654162
 10
734.6698771289
 20
-794.2643979388
 10
730.5861856591
 20
-790.2786295532
 10
726.7058378871
 20
-786.0074784834
 10
723.0340113736
 20
-781.4566437399
 10
719.5756054486
 20
-776.6321975166
 10
716.3352346746
 20
-771.5405770877
 10
714.043696464
 20
-767.5378774666
  0
LWPOLYLINE
  5
BA
330
1F
100
AcDbEntity
  8
0
  6
Continuous
 62
     7
370
    25
100
AcDbPolyline
 90
      168
 70
   128
 43
0.0
 10
653.8805016017
 20
-648.241117034
 10
654.0056054238
 20
-640.4903528632
 10
654.3807398198
 20
-632.6061172339
 10
655.0053738287
 20
-624.5995693999
 10
655.8786233511
 20
-616.4820417343
 10
656.9992523999
 20
-608.26502369
 10
658.3656748499
 20
-599.9601455369
 10
659.975956683
 20
-591.5791619015
 10
661.8278187254
 20
-583.1339351289
 10
663.9186398734
 20
-574.6364184932
 10
666.2454608034
 20
-566.098639279
 10
668.8049881606
 20
-557.5326817581
 10
671.5935992203
 20
-548.9506700853
 10
674.6073470154
 20
-540.3647511387
 10
677.8419659228
 20
-531.7870773262
 10
681.2928777012
 20
-523.2297893861
 10
684.9551979709
 20
-514.7049992025
 10
688.8237431271
 20
-506.2247726625
 10
692.8930376766
 20
-497.8011125786
 10
697.1573219882
 20
-489.4459416997
 10
701.6105604442
 20
-481.1710858359
 10
706.2464499835
 20
-472.9882571202
 10
711.058429023
 20
-464.9090374316
 10
716.0396867444
 20
-456.9448620023
 10
721.1831727343
 20
-449.1070032319
 10
726.4816069637
 20
-441.4065547331
 10
731.9274900912
 20
-433.8544156296
 10
737.5131140783
 20
-426.4612751298
 10
743.2305730989
 20
-419.2375973973
 10
749.0717747291
 20
-412.1936067402
 10
755.0284514011
 20
-405.3392731397
 10
761.0921721053
 20
-398.6842981383
 10
767.254354323
 20
-392.238101109
 10
773.5062761744
 20
-386.009805923
 10
779.8390887632
 20
-380.0082280355
 10
786.2438287014
 20
-374.2418620089
 10
792.7114307958
 20
-368.7188694896
 10
799.2327408788
 20
-363.4470676558
 10
805.7985287653
 20
-358.4339181535
 10
812.3995013168
 20
-353.6865165353
 10
819.0263155947
 20
-349.2115822172
 10
825.6695920845
 20
-345.0154489684
 10
832.3199279711
 20
-341.1040559462
 10
838.9679104479
 20
-337.4829392902
 10
845.6041300389
 20
-334.1572242859
 10
852.2191939176
 20
-331.1316181111
 10
858.8037392006
 20
-328.410403173
 10
865.3484462004
 20
-325.9974310471
 10
871.8440516162
 20
-323.8961170255
 10
878.2813616448
 20
-322.1094352833
 10
884.6512649938
 20
-320.6399146687
 10
890.9447457772
 20
-319.4896351237
 10
897.1528962767
 20
-318.6602247406
 10
903.2669295497
 20
-318.1528574568
 10
909.2781918656
 20
-317.9682513941
 10
915.1781749548
 20
-318.1066678416
 10
920.9585280511
 20
-318.5679108865
 10
926.611069711
 20
-319.3513276907
 10
932.127799394
 20
-320.4558094154
 10
937.5009087859
 20
-321.8797927902
 10
942.7227928515
 20
-323.6212623258
 10
947.7860605975
 20
-325.6777531669
 10
952.6835455349
 20
-328.0463545806
 10
957.4083158213
 20
-330.7237140765
 10
961.9536840726
 20
-333.7060421517
 10
966.3132168286
 20
-336.9891176542
 10
970.4807436579
 20
-340.5682937579
 10
974.4503658924
 20
-344.4385045391
 10
978.2164649758
 20
-348.5942721472
 10
981.773710416
 20
-353.0297145581
 10
985.1170673297
 20
-357.7385538988
 10
988.2418035692
 20
-362.7141253339
 10
991.1434964197
 20
-367.9493864985
 10
993.8180388595
 20
-373.4369274656
 10
996.2616453729
 20
-379.1689812349
 10
998.470857308
 20
-385.1374347251
 10
1000.4425477724
 20
-391.3338402577
 10
1002.1739260588
 20
-397.7494275136
 10
1003.6625415948
 20
-404.3751159465
 10
1004.9062874116
 20
-411.2015276353
 10
1005.903403126
 20
-418.2190005576
 10
1006.6524774323
 20
-425.4176022652
 10
1007.1524500995
 20
-432.7871439424
 10
1007.4026134722
 20
-440.317194827
 10
1007.4026134722
 20
-447.9970969741
 10
1007.1524500995
 20
-455.8159803409
 10
1006.6524774323
 20
-463.7627781725
 10
1005.903403126
 20
-471.826242665
 10
1004.9062874116
 20
-479.9949608862
 10
1003.6625415948
 20
-488.2573709289
 10
1002.1739260588
 20
-496.6017782757
 10
1000.4425477724
 20
-505.0163723511
 10
998.470857308
 20
-513.489243238
 10
996.2616453729
 20
-522.0083985352
 10
993.8180388595
 20
-530.5617803311
 10
991.1434964197
 20
-539.1372822702
 10
988.2418035692
 20
-547.7227666885
 10
985.1170673297
 20
-556.3060817927
 10
981.773710416
 20
-564.8750788603
 10
978.2164649758
 20
-573.417629434
 10
974.4503658924
 20
-581.9216424889
 10
970.4807436579
 20
-590.3750815453
 10
966.3132168286
 20
-598.7659817057
 10
961.9536840726
 20
-607.0824665891
 10
957.4083158213
 20
-615.3127651411
 10
952.6835455349
 20
-623.4452282945
 10
947.7860605975
 20
-631.4683454572
 10
942.7227928514
 20
-639.3707608039
 10
937.5009087859
 20
-647.1412893494
 10
932.127799394
 20
-654.7689327795
 10
926.611069711
 20
-662.2428950179
 10
920.9585280511
 20
-669.5525975068
 10
915.1781749548
 20
-676.6876941797
 10
909.2781918656
 20
-683.6380861051
 10
903.2669295497
 20
-690.3939357806
 10
897.1528962767
 20
-696.9456810563
 10
890.9447457772
 20
-703.2840486695
 10
884.6512649938
 20
-709.4000673695
 10
878.2813616448
 20
-715.285080616
 10
871.8440516162
 20
-720.9307588306
 10
865.3484462004
 20
-726.3291111871
 10
858.8037392006
 20
-731.4724969216
 10
852.2191939176
 20
-736.3536361466
 10
845.6041300389
 20
-740.9656201555
 10
838.9679104479
 20
-745.3019212004
 10
832.3199279711
 20
-749.3564017324
 10
825.6695920845
 20
-753.1233230874
 10
819.0263155947
 20
-756.5973536097
 10
812.3995013168
 20
-759.7735761974
 10
805.7985287653
 20
-762.6474952627
 10
799.2327408788
 20
-765.2150430945
 10
792.7114307957
 20
-767.472585616
 10
786.2438287014
 20
-769.4169275281
 10
779.8390887632
 20
-771.0453168324
 10
773.5062761744
 20
-772.3554487259
 10
767.254354323
 20
-773.3454688633
 10
761.0921721053
 20
-774.0139759818
 10
755.0284514011
 20
-774.3600238845
 10
749.0717747291
 20
-774.3831227792
 10
743.2305730989
 20
-774.083239972
 10
737.5131140783
 20
-773.4607999134
 10
731.9274900912
 20
-772.5166835978
 10
726.4816069637
 20
-771.2522273162
 10
721.1831727343
 20
-769.6692207651
 10
716.0396867444
 20
-767.7699045133
 10
711.058429023
 20
-765.5569668306
 10
706.2464499835
 20
-763.0335398826
 10
701.6105604442
 20
-760.2031952982
 10
697.1573219882
 20
-757.0699391136
 10
692.8930376766
 20
-753.6382061025
 10
688.8237431271
 20
-749.9128534993
 10
684.9551979709
 20
-745.899154124
 10
681.2928777012
 20
-741.6027889191
 10
677.8419659228
 20
-737.0298389094
 10
674.6073470154
 20
-732.186776594
 10
671.5935992203
 20
-727.0804567861
 10
668.8049881606
 20
-721.7181069105
 10
666.2454608034
 20
-716.1073167737
 10
663.9186398734
 20
-710.2560278218
 10
661.8278187254
 20
-704.1725218998
 10
659.975956683
 20
-697.8654095303
 10
658.3656748499
 20
-691.3436177254
 10
656.9992523999
 20
-684.6163773522
 10
655.8786233511
 20
-677.6932100672
 10
655.0053738287
 20
-670.5839148394
 10
654.3807398198
 20
-663.2985540812
 10
654.0056054238
 20
-655.8474394062
 10
653.8805016017
 20
-648.241117034
  0
LWPOLYLINE
  5
BB
330
1F
100
AcDbEntity
  8
0
  6
Continuous
 62
     7
370
    25
100
AcDbPolyline
 90
      158
 70
   128
 43
0.0
 10
674.8815730029
 20
-636.1174565734
 10
675.0063033038
 20
-628.8483656085
 10
675.3802944623
 20
-621.4469048965
 10
676.0029475651
 20
-613.9249272089
 10
676.8732654896
 20
-606.2944783139
 10
677.9898545003
 20
-598.5677776868
 10
679.3509264804
 20
-590.7571989413
 10
680.9543017962
 20
-582.8752500141
 10
682.7974127868
 20
-574.9345531352
 10
684.8773078762
 20
-566.9478246139
 10
687.1906563003
 20
-558.927854475
 10
689.7337534402
 20
-550.887485977
 10
692.5025267556
 20
-542.8395950441
 10
695.4925423057
 20
-534.7970696474
 10
698.6990118507
 20
-526.7727891654
 10
702.1168005188
 20
-518.7796037591
 10
705.7404350301
 20
-510.8303137934
 10
709.5641124608
 20
-502.9376493387
 10
713.5817095369
 20
-495.1142497848
 10
717.786792439
 20
-487.3726436
 10
722.1726271065
 20
-479.7252282678
 10
726.7321900211
 20
-472.1842504337
 10
731.4581794543
 20
-464.761786293
 10
736.3430271604
 20
-457.4697222522
 10
741.3789104969
 20
-450.3197358935
 10
746.5577649511
 20
-443.3232772749
 10
751.8712970549
 20
-436.4915505933
 10
757.3109976664
 20
-429.8354962425
 10
762.868155596
 20
-423.3657732926
 10
768.5338715568
 20
-417.0927424211
 10
774.299072416
 20
-411.0264493207
 10
780.1545257249
 20
-405.1766086123
 10
786.0908545034
 20
-399.5525882878
 10
792.0985522569
 20
-394.1633947081
 10
798.1679981996
 20
-389.0176581804
 10
804.2894726616
 20
-384.1236191373
 10
810.4531726541
 20
-379.4891149405
 10
816.6492275679
 20
-375.1215673303
 10
822.8677149802
 20
-371.0279705398
 10
829.0986765448
 20
-367.214880095
 10
835.332133939
 20
-363.6884023161
 10
841.5581048436
 20
-360.4541845388
 10
847.7666189279
 20
-357.517406071
 10
853.9477338171
 20
-354.8827698984
 10
860.0915510136
 20
-352.5544951531
 10
866.1882317486
 20
-350.5363103568
 10
872.2280127382
 20
-348.8314474505
 10
878.2012218183
 20
-347.4426366181
 10
884.0982934337
 20
-346.3721019148
 10
889.9097839564
 20
-345.6215577054
 10
895.6263868089
 20
-345.1922059187
 10
901.2389473677
 20
-345.0847341227
 10
906.7384776236
 20
-345.299314424
 10
912.1161705753
 20
-345.8356031914
 10
917.3634143328
 20
-346.692741607
 10
922.471805909
 20
-347.8693570409
 10
927.4331646758
 20
-349.3635652498
 10
932.2395454649
 20
-351.1729733939
 10
936.8832512913
 20
-353.2946838696
 10
941.3568456792
 20
-355.7252989489
 10
945.653164571
 20
-358.4609262212
 10
949.7653277998
 20
-361.4971848263
 10
953.6867501073
 20
-364.8292124702
 10
957.4111516895
 20
-368.4516732113
 10
960.9325682536
 20
-372.3587660056
 10
964.2453605688
 20
-376.5442339967
 10
967.3442234971
 20
-381.0013745354
 10
970.2241944893
 20
-385.7230499133
 10
972.8806615317
 20
-390.7016987936
 10
975.3093705321
 20
-395.9293483195
 10
977.5064321324
 20
-401.3976268819
 10
979.4683279366
 20
-407.0977775264
 10
981.1919161457
 20
-413.0206719762
 10
982.6744365887
 20
-419.1568252504
 10
983.913515143
 20
-425.4964108534
 10
984.907167536
 20
-432.0292765109
 10
985.6538025233
 20
-438.7449604284
 10
986.1522244361
 20
-445.6327080441
 10
986.4016350969
 20
-452.6814892519
 10
986.4016350969
 20
-459.8800160649
 10
986.1522244361
 20
-467.2167606922
 10
985.6538025233
 20
-474.6799739993
 10
984.907167536
 20
-482.2577043239
 10
983.913515143
 20
-489.9378166147
 10
982.6744365887
 20
-497.708011865
 10
981.1919161457
 20
-505.5558468085
 10
979.4683279366
 20
-513.4687538459
 10
977.5064321324
 20
-521.4340611707
 10
975.3093705321
 20
-529.4390130622
 10
972.8806615317
 20
-537.4707903125
 10
970.2241944893
 20
-545.5165307551
 10
967.3442234971
 20
-553.5633498629
 10
964.2453605688
 20
-561.5983613815
 10
960.9325682536
 20
-569.608697965
 10
957.4111516895
 20
-577.5815317825
 10
953.6867501072
 20
-585.5040950602
 10
949.7653277998
 20
-593.3637005281
 10
945.653164571
 20
-601.1477617374
 10
941.3568456792
 20
-608.8438132166
 10
936.8832512913
 20
-616.4395304339
 10
932.2395454649
 20
-623.9227495338
 10
927.4331646758
 20
-631.2814868162
 10
922.471805909
 20
-638.5039579276
 10
917.3634143328
 20
-645.5785967325
 10
912.1161705753
 20
-652.4940738352
 10
906.7384776236
 20
-659.2393147234
 10
901.2389473677
 20
-665.8035175026
 10
895.6263868089
 20
-672.1761701945
 10
889.9097839564
 20
-678.347067571
 10
884.0982934337
 20
-684.3063274969
 10
878.2012218183
 20
-690.0444067554
 10
872.2280127382
 20
-695.5521163303
 10
866.1882317486
 20
-700.8206361219
 10
860.0915510136
 20
-705.8415290713
 10
853.9477338171
 20
-710.6067546716
 10
847.7666189279
 20
-715.1086818441
 10
841.5581048436
 20
-719.3401011587
 10
835.332133939
 20
-723.2942363794
 10
829.0986765448
 20
-726.9647553155
 10
822.8677149802
 20
-730.3457799621
 10
816.6492275679
 20
-733.4318959135
 10
810.4531726541
 20
-736.2181610335
 10
804.2894726616
 20
-738.70011337
 10
798.1679981996
 20
-740.8737783004
 10
792.0985522569
 20
-742.7356748964
 10
786.0908545034
 20
-744.2828214988
 10
780.1545257249
 20
-745.5127404918
 10
774.299072416
 20
-746.4234622712
 10
768.5338715568
 20
-747.0135283983
 10
762.868155596
 20
-747.2819939354
 10
757.3109976664
 20
-747.2284289593
 10
751.8712970549
 20
-746.8529192493
 10
746.5577649511
 20
-746.1560661504
 10
741.3789104969
 20
-745.1389856099
 10
736.3430271604
 20
-743.8033063906
 10
731.4581794543
 20
-742.151167462
 10
726.7321900211
 20
-740.1852145757
 10
722.1726271065
 20
-737.9085960277
 10
717.786792439
 20
-735.3249576172
 10
713.5817095369
 20
-732.4384368078
 10
709.5641124608
 20
-729.2536561021
 10
705.7404350301
 20
-725.775715639
 10
702.1168005188
 20
-722.0101850262
 10
698.6990118507
 20
-717.9630944211
 10
695.4925423057
 20
-713.640924874
 10
692.5025267556
 20
-709.0505979494
 10
689.7337534402
 20
-704.1994646415
 10
687.1906563003
 20
-699.0952936025
 10
684.8773078762
 20
-693.7462587016
 10
682.7974127868
 20
-688.1609259354
 10
680.9543017962
 20
-682.3482397103
 10
679.3509264804
 20
-676.3175085185
 10
677.9898545003
 20
-670.0783900317
 10
676.8732654896
 20
-663.6408756352
 10
676.0029475651
 20
-657.0152744271
 10
675.3802944623
 20
-650.2121967098
 10
675.0063033038
 20
-643.2425369982
 10
674.8815730029
 20
-636.1174565734
  0
LWPOLYLINE
  5
BC
330
1F
100
AcDbEntity
  8
0
  6
Continuous
 62
     7
370
    25
100
AcDbPolyline
 90
       86
 70
   128
 43
0.0
 10
987.4668436312
 20
-348.047069977
 10
989.2281209747
 20
-349.0928965925
 10
993.773489226
 20
-352.0752246677
 10
998.1330219819
 20
-355.3583001703
 10
1002.3005488113
 20
-358.9374762739
 10
1006.2701710458
 20
-362.8076870551
 10
1010.0362701292
 20
-366.9634546632
 10
1013.5935155694
 20
-371.3988970741
 10
1016.9368724831
 20
-376.1077364148
 10
1020.0616087226
 20
-381.0833078499
 10
1022.9633015731
 20
-386.3185690145
 10
1025.6378440129
 20
-391.8061099816
 10
1028.0814505263
 20
-397.5381637509
 10
1030.2906624614
 20
-403.5066172411
 10
1032.2623529258
 20
-409.7030227737
 10
1033.9937312122
 20
-416.1186100296
 10
1035.4823467482
 20
-422.7442984625
 10
1036.726092565
 20
-429.5707101513
 10
1037.7232082794
 20
-436.5881830736
 10
1038.4722825856
 20
-443.7867847812
 10
1038.9722552529
 20
-451.1563264584
 10
1039.2224186256
 20
-458.6863773431
 10
1039.2224186256
 20
-466.3662794901
 10
1038.9722552529
 20
-474.185162857
 10
1038.4722825856
 20
-482.1319606885
 10
1037.7232082794
 20
-490.195425181
 10
1036.726092565
 20
-498.3641434022
 10
1035.4823467482
 20
-506.6265534449
 10
1033.9937312122
 20
-514.9709607917
 10
1032.2623529258
 20
-523.3855548671
 10
1030.2906624614
 20
-531.858425754
 10
1028.0814505263
 20
-540.3775810512
 10
1025.6378440129
 20
-548.9309628471
 10
1022.9633015731
 20
-557.5064647862
 10
1020.0616087226
 20
-566.0919492045
 10
1016.9368724831
 20
-574.6752643087
 10
1013.5935155694
 20
-583.2442613763
 10
1010.0362701292
 20
-591.7868119501
 10
1006.2701710458
 20
-600.2908250049
 10
1002.3005488113
 20
-608.7442640614
 10
998.1330219819
 20
-617.1351642217
 10
993.773489226
 20
-625.4516491051
 10
989.2281209747
 20
-633.6819476571
 10
984.5033506883
 20
-641.8144108105
 10
979.6058657509
 20
-649.8375279732
 10
974.5425980048
 20
-657.7399433199
 10
969.3207139393
 20
-665.5104718654
 10
963.9476045474
 20
-673.1381152955
 10
958.4308748644
 20
-680.6120775339
 10
952.7783332045
 20
-687.9217800228
 10
946.9979801082
 20
-695.0568766957
 10
941.097997019
 20
-702.0072686211
 10
935.0867347031
 20
-708.7631182966
 10
928.9727014301
 20
-715.3148635723
 10
922.7645509306
 20
-721.6532311855
 10
916.4710701471
 20
-727.7692498856
 10
910.1011667982
 20
-733.654263132
 10
903.6638567696
 20
-739.2999413466
 10
897.1682513538
 20
-744.6982937031
 10
890.623544354
 20
-749.8416794376
 10
884.038999071
 20
-754.7228186626
 10
877.4239351923
 20
-759.3348026715
 10
870.7877156013
 20
-763.6711037165
 10
864.1397331245
 20
-767.7255842484
 10
857.4893972378
 20
-771.4925056034
 10
850.8461207481
 20
-774.9665361257
 10
844.2193064702
 20
-778.1427587134
 10
837.6183339187
 20
-781.0166777787
 10
831.0525460322
 20
-783.5842256105
 10
824.5312359491
 20
-785.841768132
 10
818.0636338548
 20
-787.7861100442
 10
811.6588939166
 20
-789.4144993484
 10
805.3260813278
 20
-790.7246312419
 10
799.0741594764
 20
-791.7146513793
 10
792.9119772587
 20
-792.3831584979
 10
786.8482565545
 20
-792.7292064005
 10
780.8915798825
 20
-792.7523052952
 10
775.0503782523
 20
-792.452422488
 10
769.3329192317
 20
-791.8299824294
 10
763.7472952446
 20
-790.8858661138
 10
758.3014121171
 20
-789.6214098322
 10
753.0029778877
 20
-788.0384032812
 10
747.8594918978
 20
-786.1390870294
 10
742.8782341764
 20
-783.9261493466
 10
738.0662551369
 20
-781.4027223987
 10
737.4871604722
 20
-781.0715011673
  0
LWPOLYLINE
  5
BD
330
1F
100
AcDbEntity
  8
0
  6
Continuous
 62
     7
370
    25
100
AcDbPolyline
 90
       53
 70
   128
 43
0.0
 10
739.7939755158
 20
-673.5905889061
 10
739.9187058168
 20
-666.3214979411
 10
740.2926969752
 20
-658.9200372292
 10
740.915350078
 20
-651.3980595416
 10
741.7856680026
 20
-643.7676106466
 10
742.9022570132
 20
-636.0409100195
 10
744.2633289933
 20
-628.2303312739
 10
745.8667043091
 20
-620.3483823468
 10
747.7098152997
 20
-612.4076854679
 10
749.7897103891
 20
-604.4209569466
 10
752.1030588132
 20
-596.4009868077
 10
754.6461559532
 20
-588.3606183096
 10
757.4149292685
 20
-580.3127273768
 10
760.4049448187
 20
-572.2702019801
 10
763.6114143636
 20
-564.2459214981
 10
767.0292030317
 20
-556.2527360917
 10
770.652837543
 20
-548.303446126
 10
774.4765149738
 20
-540.4107816714
 10
778.4941120498
 20
-532.5873821175
 10
782.6991949519
 20
-524.8457759327
 10
787.0850296195
 20
-517.1983606005
 10
791.644592534
 20
-509.6573827664
 10
796.3705819672
 20
-502.2349186257
 10
801.2554296733
 20
-494.9428545848
 10
806.2913130098
 20
-487.7928682262
 10
811.470167464
 20
-480.7964096075
 10
816.7836995679
 20
-473.964682926
 10
822.2234001794
 20
-467.3086285751
 10
827.7805581089
 20
-460.8389056252
 10
833.4462740697
 20
-454.5658747537
 10
839.2114749289
 20
-448.4995816534
 10
845.0669282378
 20
-442.649740945
 10
851.0032570163
 20
-437.0257206205
 10
857.0109547698
 20
-431.6365270408
 10
863.0804007125
 20
-426.4907905131
 10
869.2018751745
 20
-421.59675147
 10
875.365575167
 20
-416.9622472732
 10
881.5616300808
 20
-412.5946996629
 10
887.7801174931
 20
-408.5011028725
 10
894.0110790577
 20
-404.6880124277
 10
900.244536452
 20
-401.1615346487
 10
906.4705073565
 20
-397.9273168714
 10
912.6790214408
 20
-394.9905384037
 10
918.8601363301
 20
-392.3559022311
 10
925.0039535265
 20
-390.0276274857
 10
931.1006342615
 20
-388.0094426895
 10
937.1404152511
 20
-386.3045797831
 10
943.1136243313
 20
-384.9157689507
 10
949.0106959466
 20
-383.8452342475
 10
954.8221864693
 20
-383.0946900381
 10
960.5387893218
 20
-382.6653382513
 10
966.1513498806
 20
-382.5578664554
 10
968.3654190515
 20
-382.6050665046
  0
LWPOLYLINE
  5
BE
330
1F
100
AcDbEntity
  8
0
  6
Continuous
 62
     7
370
    25
100
AcDbPolyline
 90
       14
 70
   128
 43
0.0
 10
757.861377258
 20
-747.2482719403
 10
757.4149292685
 20
-746.5237302821
 10
754.6461559532
 20
-741.6725969742
 10
752.1030588132
 20
-736.5684259352
 10
749.7897103891
 20
-731.2193910343
 10
747.7098152997
 20
-725.6340582681
 10
745.8667043091
 20
-719.8213720429
 10
744.2633289933
 20
-713.7906408511
 10
742.9022570132
 20
-707.5515223644
 10
741.7856680026
 20
-701.1140079678
 10
740.915350078
 20
-694.4884067597
 10
740.2926969752
 20
-687.6853290425
 10
739.9187058168
 20
-680.7156693309
 10
739.7939755158
 20
-673.5905889061
  0
LWPOLYLINE
  5
BF
330
1F
100
AcDbEntity
  8
0
  6
Continuous
 62
     7
370
    25
100
AcDbPolyline
 90
       41
 70
   128
 43
0.0
 10
740.0942940975
 20
-684.5817198736
 10
740.2912123046
 20
-681.0721078582
 10
740.9120985095
 20
-673.1135993112
 10
741.7801085348
 20
-665.0447768116
 10
742.8940138093
 20
-656.8770608755
 10
744.2522377246
 20
-648.6220119914
 10
745.8528578667
 20
-640.2913142578
 10
747.6936087368
 20
-631.8967588458
 10
749.7718849579
 20
-623.45022731
 10
752.0847449623
 20
-614.9636747711
 10
754.6289151554
 20
-606.4491129952
 10
757.4007945488
 20
-597.9185933925
 10
760.3964598571
 20
-589.3841899595
 10
763.611671051
 20
-580.85798219
 10
767.0418773588
 20
-572.3520379775
 10
770.6822237069
 20
-563.8783965349
 10
774.5275575921
 20
-555.4490513542
 10
778.5724363744
 20
-547.0759332309
 10
782.8111349801
 20
-538.7708933772
 10
787.2376540053
 20
-530.5456866485
 10
791.8457282074
 20
-522.4119549051
 10
796.6288353726
 20
-514.3812105348
 10
801.5802055477
 20
-506.464820158
 10
806.6928306217
 20
-498.6739885402
 10
811.9594742457
 20
-491.0197427324
 10
817.3726820744
 20
-483.5129164635
 10
822.9247923176
 20
-476.1641348067
 10
828.6079465841
 20
-468.9837991406
 10
834.4141010045
 20
-461.9820724275
 10
840.3350376165
 20
-455.1688648285
 10
846.3623759964
 20
-448.5538196771
 10
852.4875851208
 20
-442.1462998301
 10
858.7019954411
 20
-435.9553744152
 10
864.9968111544
 20
-429.989805995
 10
871.3631226529
 20
-424.2580381646
 10
877.7919191348
 20
-418.7681836004
 10
884.2741013573
 20
-413.5280125776
 10
890.8004945165
 20
-408.5449419723
 10
897.3618612327
 20
-403.8260247638
 10
903.9489146249
 20
-399.3779400516
 10
905.2125480857
 20
-398.5575233916
  0
ENDSEC
  0
SECTION
  2
OBJECTS
  0
DICTIONARY
  5
C
330
0
100
AcDbDictionary
281
     1
  3
ACAD_GROUP
350
D
  3
ACAD_LAYOUT
350
1A
  3
ACAD_MLINESTYLE
350
17
  3
ACAD_PLOTSETTINGS
350
19
  3
ACAD_PLOTSTYLENAME
350
E
  3
ACAD_SCALELIST
350
47
  0
DICTIONARY
  5
D
102
{ACAD_REACTORS
330
C
102
}
330
C
100
AcDbDictionary
281
     1
  0
DICTIONARY
  5
1A
102
{ACAD_REACTORS
330
C
102
}
330
C
100
AcDbDictionary
281
     1
  3
Layout1
350
1E
  3
Layout2
350
26
  3
Model
350
22
  0
DICTIONARY
  5
17
102
{ACAD_REACTORS
330
C
102
}
330
C
100
AcDbDictionary
281
     1
  3
Standard
350
18
  0
DICTIONARY
  5
19
102
{ACAD_REACTORS
330
C
102
}
330
C
100
AcDbDictionary
281
     1
  0
ACDBDICTIONARYWDFLT
  5
E
102
{ACAD_REACTORS
330
C
102
}
330
C
100
AcDbDictionary
281
     1
  3
Normal
350
F
100
AcDbDictionaryWithDefault
340
F
  0
DICTIONARY
  5
47
102
{ACAD_REACTORS
330
C
102
}
330
C
100
AcDbDictionary
281
     1
  3
A0
350
48
  3
A1
350
49
  3
A2
350
4A
  3
A3
350
4B
  3
A4
350
4C
  3
A5
350
4D
  3
A6
350
4E
  3
A7
350
4F
  3
A8
350
50
  3
A9
350
51
  3
B0
350
52
  3
B1
350
53
  3
B2
350
54
  3
B3
350
55
  3
B4
350
56
  3
B5
350
57
  3
B6
350
58
  3
B7
350
59
  3
B8
350
5A
  3
B9
350
5B
  3
C0
350
5C
  3
C1
350
5D
  3
C2
350
5E
  3
C3
350
5F
  3
C4
350
60
  3
C5
350
61
  3
C6
350
62
  3
C7
350
63
  3
C8
350
64
  3
C9
350
65
  3
D0
350
66
  3
D1
350
67
  3
D2
350
68
  0
LAYOUT
  5
1E
102
{ACAD_REACTORS
330
1A
102
}
330
1A
100
AcDbPlotSettings
  1

  2
none_device
  4

  6

 40
0.0
 41
0.0
 42
0.0
 43
0.0
 44
0.0
 45
0.0
 46
0.0
 47
0.0
 48
0.0
 49
0.0
140
0.0
141
0.0
142
1.0
143
1.0
 70
   688
 72
     1
 73
     0
 74
     5
  7

 75
    16
147
1.0
148
0.0
149
0.0
100
AcDbLayout
  1
Layout1
 70
     1
 71
     1
 10
0.0
 20
0.0
 11
420.0
 21
297.0
 12
0.0
 22
0.0
 32
0.0
 14
1.0000000000E+20
 24
1.0000000000E+20
 34
1.0000000000E+20
 15
-1.0000000000E+20
 25
-1.0000000000E+20
 35
-1.0000000000E+20
146
0.0
 13
0.0
 23
0.0
 33
0.0
 16
1.0
 26
0.0
 36
0.0
 17
0.0
 27
1.0
 37
0.0
 76
     0
330
1B
  0
LAYOUT
  5
26
102
{ACAD_REACTORS
330
1A
102
}
330
1A
100
AcDbPlotSettings
  1

  2
none_device
  4

  6

 40
0.0
 41
0.0
 42
0.0
 43
0.0
 44
0.0
 45
0.0
 46
0.0
 47
0.0
 48
0.0
 49
0.0
140
0.0
141
0.0
142
1.0
143
1.0
 70
   688
 72
     1
 73
     0
 74
     5
  7

 75
    16
147
1.0
148
0.0
149
0.0
100
AcDbLayout
  1
Layout2
 70
     1
 71
     2
 10
0.0
 20
0.0
 11
0.0
 21
0.0
 12
0.0
 22
0.0
 32
0.0
 14
0.0
 24
0.0
 34
0.0
 15
0.0
 25
0.0
 35
0.0
146
0.0
 13
0.0
 23
0.0
 33
0.0
 16
1.0
 26
0.0
 36
0.0
 17
0.0
 27
1.0
 37
0.0
 76
     0
330
23
  0
LAYOUT
  5
22
102
{ACAD_REACTORS
330
1A
102
}
330
1A
100
AcDbPlotSettings
  1

  2
none_device
  4
Letter_(8.50_x_11.00_Inches)
  6

 40
6.35
 41
6.35
 42
6.35000508
 43
6.35000508
 44
215.9
 45
279.4
 46
0.0
 47
0.0
 48
0.0
 49
0.0
140
0.0
141
0.0
142
1.0
143
1.0
 70
  1712
 72
     1
 73
     0
 74
     0
  7

 75
     0
147
1.0
148
0.0
149
0.0
100
AcDbLayout
  1
Model
 70
     1
 71
     0
 10
0.0
 20
0.0
 11
279.4
 21
215.9
 12
0.0
 22
0.0
 32
0.0
 14
0.0
 24
0.0
 34
0.0
 15
279.4
 25
215.9
 35
0.0
146
0.0
 13
0.0
 23
0.0
 33
0.0
 16
1.0
 26
0.0
 36
0.0
 17
0.0
 27
1.0
 37
0.0
 76
     0
330
1F
331
29
  0
MLINESTYLE
  5
18
102
{ACAD_REACTORS
330
17
102
}
330
17
100
AcDbMlineStyle
  2
Standard
 70
     0
  3

 62
   256
 51
90.0
 52
90.0
 71
     2
 49
0.5
 62
   256
  6
BYLAYER
 49
-0.5
 62
   256
  6
BYLAYER
  0
ACDBPLACEHOLDER
  5
F
102
{ACAD_REACTORS
330
E
102
}
330
E
  0
SCALE
  5
48
102
{ACAD_REACTORS
330
47
102
}
330
47
100
AcDbScale
 70
     0
300
1:1
140
1.0
141
1.0
290
     1
  0
SCALE
  5
49
102
{ACAD_REACTORS
330
47
102
}
330
47
100
AcDbScale
 70
     0
300
1:2
140
1.0
141
2.0
290
     0
  0
SCALE
  5
4A
102
{ACAD_REACTORS
330
47
102
}
330
47
100
AcDbScale
 70
     0
300
1:4
140
1.0
141
4.0
290
     0
  0
SCALE
  5
4B
102
{ACAD_REACTORS
330
47
102
}
330
47
100
AcDbScale
 70
     0
300
1:5
140
1.0
141
5.0
290
     0
  0
SCALE
  5
4C
102
{ACAD_REACTORS
330
47
102
}
330
47
100
AcDbScale
 70
     0
300
1:8
140
1.0
141
8.0
290
     0
  0
SCALE
  5
4D
102
{ACAD_REACTORS
330
47
102
}
330
47
100
AcDbScale
 70
     0
300
1:10
140
1.0
141
10.0
290
     0
  0
SCALE
  5
4E
102
{ACAD_REACTORS
330
47
102
}
330
47
100
AcDbScale
 70
     0
300
1:16
140
1.0
141
16.0
290
     0
  0
SCALE
  5
4F
102
{ACAD_REACTORS
330
47
102
}
330
47
100
AcDbScale
 70
     0
300
1:20
140
1.0
141
20.0
290
     0
  0
SCALE
  5
50
102
{ACAD_REACTORS
330
47
102
}
330
47
100
AcDbScale
 70
     0
300
1:30
140
1.0
141
30.0
290
     0
  0
SCALE
  5
51
102
{ACAD_REACTORS
330
47
102
}
330
47
100
AcDbScale
 70
     0
300
1:40
140
1.0
141
40.0
290
     0
  0
SCALE
  5
52
102
{ACAD_REACTORS
330
47
102
}
330
47
100
AcDbScale
 70
     0
300
1:50
140
1.0
141
50.0
290
     0
  0
SCALE
  5
53
102
{ACAD_REACTORS
330
47
102
}
330
47
100
AcDbScale
 70
     0
300
1:100
140
1.0
141
100.0
290
     0
  0
SCALE
  5
54
102
{ACAD_REACTORS
330
47
102
}
330
47
100
AcDbScale
 70
     0
300
2:1
140
2.0
141
1.0
290
     0
  0
SCALE
  5
55
102
{ACAD_REACTORS
330
47
102
}
330
47
100
AcDbScale
 70
     0
300
4:1
140
4.0
141
1.0
290
     0
  0
SCALE
  5
56
102
{ACAD_REACTORS
330
47
102
}
330
47
100
AcDbScale
 70
     0
300
8:1
140
8.0
141
1.0
290
     0
  0
SCALE
  5
57
102
{ACAD_REACTORS
330
47
102
}
330
47
100
AcDbScale
 70
     0
300
10:1
140
10.0
141
1.0
290
     0
  0
SCALE
  5
58
102
{ACAD_REACTORS
330
47
102
}
330
47
100
AcDbScale
 70
     0
300
100:1
140
100.0
141
1.0
290
     0
  0
SCALE
  5
59
102
{ACAD_REACTORS
330
47
102
}
330
47
100
AcDbScale
 70
     0
300
1/128" = 1'-0"
140
0.0078125
141
12.0
290
     0
  0
SCALE
  5
5A
102
{ACAD_REACTORS
330
47
102
}
330
47
100
AcDbScale
 70
     0
300
1/64" = 1'-0"
140
0.015625
141
12.0
290
     0
  0
SCALE
  5
5B
102
{ACAD_REACTORS
330
47
102
}
330
47
100
AcDbScale
 70
     0
300
1/32" = 1'-0"
140
0.03125
141
12.0
290
     0
  0
SCALE
  5
5C
102
{ACAD_REACTORS
330
47
102
}
330
47
100
AcDbScale
 70
     0
300
1/16" = 1'-0"
140
0.0625
141
12.0
290
     0
  0
SCALE
  5
5D
102
{ACAD_REACTORS
330
47
102
}
330
47
100
AcDbScale
 70
     0
300
3/32" = 1'-0"
140
0.09375
141
12.0
290
     0
  0
SCALE
  5
5E
102
{ACAD_REACTORS
330
47
102
}
330
47
100
AcDbScale
 70
     0
300
1/8" = 1'-0"
140
0.125
141
12.0
290
     0
  0
SCALE
  5
5F
102
{ACAD_REACTORS
330
47
102
}
330
47
100
AcDbScale
 70
     0
300
3/16" = 1'-0"
140
0.1875
141
12.0
290
     0
  0
SCALE
  5
60
102
{ACAD_REACTORS
330
47
102
}
330
47
100
AcDbScale
 70
     0
300
1/4" = 1'-0"
140
0.25
141
12.0
290
     0
  0
SCALE
  5
61
102
{ACAD_REACTORS
330
47
102
}
330
47
100
AcDbScale
 70
     0
300
3/8" = 1'-0"
140
0.375
141
12.0
290
     0
  0
SCALE
  5
62
102
{ACAD_REACTORS
330
47
102
}
330
47
100
AcDbScale
 70
     0
300
1/2" = 1'-0"
140
0.5
141
12.0
290
     0
  0
SCALE
  5
63
102
{ACAD_REACTORS
330
47
102
}
330
47
100
AcDbScale
 70
     0
300
3/4" = 1'-0"
140
0.75
141
12.0
290
     0
  0
SCALE
  5
64
102
{ACAD_REACTORS
330
47
102
}
330
47
100
AcDbScale
 70
     0
300
1" = 1'-0"
140
1.0
141
12.0
290
     0
  0
SCALE
  5
65
102
{ACAD_REACTORS
330
47
102
}
330
47
100
AcDbScale
 70
     0
300
1-1/2" = 1'-0"
140
1.5
141
12.0
290
     0
  0
SCALE
  5
66
102
{ACAD_REACTORS
330
47
102
}
330
47
100
AcDbScale
 70
     0
300
3" = 1'-0"
140
3.0
141
12.0
290
     0
  0
SCALE
  5
67
102
{ACAD_REACTORS
330
47
102
}
330
47
100
AcDbScale
 70
     0
300
6" = 1'-0"
140
6.0
141
12.0
290
     0
  0
SCALE
  5
68
102
{ACAD_REACTORS
330
47
102
}
330
47
100
AcDbScale
 70
     0
300
1'-0" = 1'-0"
140
12.0
141
12.0
290
     0
  0
ENDSEC
  0
EOF
